  0
SECTION
  2
HEADER
  9
$ACADVER
  1
AC1015
  9
$ACADMAINTVER
 70
     6
  9
$DWGCODEPAGE
  3
ANSI_1254
  9
$INSBASE
 10
0.0
 20
0.0
 30
0.0
  9
$EXTMIN
 10
0.0
 20
0.0
 30
0.0
  9
$EXTMAX
 10
279.4
 20
215.9
 30
0.0
  9
$LIMMIN
 10
0.0
 20
0.0
  9
$LIMMAX
 10
279.4
 20
215.9
  9
$ORTHOMODE
 70
     0
  9
$REGENMODE
 70
     1
  9
$FILLMODE
 70
     1
  9
$QTEXTMODE
 70
     0
  9
$MIRRTEXT
 70
     1
  9
$LTSCALE
 40
1.0
  9
$ATTMODE
 70
     1
  9
$TEXTSIZE
 40
3.5
  9
$TRACEWID
 40
1.0
  9
$TEXTSTYLE
  7
Standard
  9
$CLAYER
  8
0
  9
$CELTYPE
  6
ByLayer
  9
$CECOLOR
 62
   256
  9
$CELTSCALE
 40
1.0
  9
$DISPSILH
 70
     0
  9
$DIMSCALE
 40
1.0
  9
$DIMASZ
 40
3.5
  9
$DIMEXO
 40
1.0
  9
$DIMDLI
 40
3.75
  9
$DIMRND
 40
0.0
  9
$DIMDLE
 40
0.0
  9
$DIMEXE
 40
1.0
  9
$DIMTP
 40
0.0
  9
$DIMTM
 40
0.0
  9
$DIMTXT
 40
3.5
  9
$DIMCEN
 40
2.5
  9
$DIMTSZ
 40
0.0
  9
$DIMTOL
 70
     0
  9
$DIMLIM
 70
     0
  9
$DIMTIH
 70
     1
  9
$DIMTOH
 70
     1
  9
$DIMSE1
 70
     0
  9
$DIMSE2
 70
     0
  9
$DIMTAD
 70
     1
  9
$DIMZIN
 70
     0
  9
$DIMBLK
  1

  9
$DIMASO
 70
     1
  9
$DIMSHO
 70
     1
  9
$DIMPOST
  1

  9
$DIMAPOST
  1

  9
$DIMALT
 70
     0
  9
$DIMALTD
 70
     3
  9
$DIMALTF
 40
0.0393700787
  9
$DIMLFAC
 40
1.0
  9
$DIMTOFL
 70
     1
  9
$DIMTVP
 40
0.0
  9
$DIMTIX
 70
     0
  9
$DIMSOXD
 70
     0
  9
$DIMSAH
 70
     0
  9
$DIMBLK1
  1

  9
$DIMBLK2
  1

  9
$DIMSTYLE
  2
ISO-25
  9
$DIMCLRD
 70
     0
  9
$DIMCLRE
 70
     0
  9
$DIMCLRT
 70
     0
  9
$DIMTFAC
 40
1.0
  9
$DIMGAP
 40
1.524
  9
$DIMJUST
 70
     0
  9
$DIMSD1
 70
     0
  9
$DIMSD2
 70
     0
  9
$DIMTOLJ
 70
     0
  9
$DIMTZIN
 70
     0
  9
$DIMALTZ
 70
     0
  9
$DIMALTTZ
 70
     0
  9
$DIMUPT
 70
     0
  9
$DIMDEC
 70
     2
  9
$DIMTDEC
 70
     2
  9
$DIMALTU
 70
     2
  9
$DIMALTTD
 70
     3
  9
$DIMTXSTY
  7
Standard
  9
$DIMAUNIT
 70
     0
  9
$DIMADEC
 70
     2
  9
$DIMALTRND
 40
0.0
  9
$DIMAZIN
 70
     0
  9
$DIMDSEP
 70
    44
  9
$DIMATFIT
 70
     3
  9
$DIMFRAC
 70
     0
  9
$DIMLDRBLK
  1

  9
$DIMLUNIT
 70
     2
  9
$DIMLWD
 70
    -2
  9
$DIMLWE
 70
    -2
  9
$DIMTMOVE
 70
     0
  9
$LUNITS
 70
     2
  9
$LUPREC
 70
     2
  9
$SKETCHINC
 40
1.0
  9
$FILLETRAD
 40
10.0
  9
$AUNITS
 70
     0
  9
$AUPREC
 70
     2
  9
$MENU
  1
.
  9
$ELEVATION
 40
0.0
  9
$PELEVATION
 40
0.0
  9
$THICKNESS
 40
0.0
  9
$LIMCHECK
 70
     0
  9
$CHAMFERA
 40
0.0
  9
$CHAMFERB
 40
0.0
  9
$CHAMFERC
 40
0.0
  9
$CHAMFERD
 40
0.0
  9
$SKPOLY
 70
     0
  9
$TDCREATE
 40
2458985.699927488
  9
$TDUCREATE
 40
2458985.574927488
  9
$TDUPDATE
 40
2458985.699927789
  9
$TDUUPDATE
 40
2458985.574927789
  9
$TDINDWG
 40
0.0000000116
  9
$TDUSRTIMER
 40
0.0000000116
  9
$USRTIMER
 70
     1
  9
$ANGBASE
 50
0.0
  9
$ANGDIR
 70
     0
  9
$PDMODE
 70
     0
  9
$PDSIZE
 40
-1.0
  9
$PLINEWID
 40
0.0
  9
$SPLFRAME
 70
     0
  9
$SPLINETYPE
 70
     6
  9
$SPLINESEGS
 70
     8
  9
$HANDSEED
  5
F1
  9
$SURFTAB1
 70
     6
  9
$SURFTAB2
 70
     6
  9
$SURFTYPE
 70
     6
  9
$SURFU
 70
     6
  9
$SURFV
 70
     6
  9
$UCSBASE
  2

  9
$UCSNAME
  2

  9
$UCSORG
 10
0.0
 20
0.0
 30
0.0
  9
$UCSXDIR
 10
1.0
 20
0.0
 30
0.0
  9
$UCSYDIR
 10
0.0
 20
1.0
 30
0.0
  9
$UCSORTHOREF
  2

  9
$UCSORTHOVIEW
 70
     0
  9
$UCSORGTOP
 10
0.0
 20
0.0
 30
0.0
  9
$UCSORGBOTTOM
 10
0.0
 20
0.0
 30
0.0
  9
$UCSORGLEFT
 10
0.0
 20
0.0
 30
0.0
  9
$UCSORGRIGHT
 10
0.0
 20
0.0
 30
0.0
  9
$UCSORGFRONT
 10
0.0
 20
0.0
 30
0.0
  9
$UCSORGBACK
 10
0.0
 20
0.0
 30
0.0
  9
$PUCSBASE
  2

  9
$PUCSNAME
  2

  9
$PUCSORG
 10
0.0
 20
0.0
 30
0.0
  9
$PUCSXDIR
 10
1.0
 20
0.0
 30
0.0
  9
$PUCSYDIR
 10
0.0
 20
1.0
 30
0.0
  9
$PUCSORTHOREF
  2

  9
$PUCSORTHOVIEW
 70
     0
  9
$PUCSORGTOP
 10
0.0
 20
0.0
 30
0.0
  9
$PUCSORGBOTTOM
 10
0.0
 20
0.0
 30
0.0
  9
$PUCSORGLEFT
 10
0.0
 20
0.0
 30
0.0
  9
$PUCSORGRIGHT
 10
0.0
 20
0.0
 30
0.0
  9
$PUCSORGFRONT
 10
0.0
 20
0.0
 30
0.0
  9
$PUCSORGBACK
 10
0.0
 20
0.0
 30
0.0
  9
$USERI1
 70
     0
  9
$USERI2
 70
     0
  9
$USERI3
 70
     0
  9
$USERI4
 70
     0
  9
$USERI5
 70
     0
  9
$USERR1
 40
0.0
  9
$USERR2
 40
0.0
  9
$USERR3
 40
0.0
  9
$USERR4
 40
0.0
  9
$USERR5
 40
0.0
  9
$WORLDVIEW
 70
     1
  9
$SHADEDGE
 70
     3
  9
$SHADEDIF
 70
    70
  9
$TILEMODE
 70
     1
  9
$MAXACTVP
 70
    64
  9
$PINSBASE
 10
0.0
 20
0.0
 30
0.0
  9
$PLIMCHECK
 70
     0
  9
$PEXTMIN
 10
1.0000000000E+20
 20
1.0000000000E+20
 30
1.0000000000E+20
  9
$PEXTMAX
 10
-1.0000000000E+20
 20
-1.0000000000E+20
 30
-1.0000000000E+20
  9
$PLIMMIN
 10
0.0
 20
0.0
  9
$PLIMMAX
 10
420.0
 20
297.0
  9
$UNITMODE
 70
     0
  9
$VISRETAIN
 70
     1
  9
$PLINEGEN
 70
     0
  9
$PSLTSCALE
 70
     1
  9
$TREEDEPTH
 70
  3020
  9
$CMLSTYLE
  2
Standard
  9
$CMLJUST
 70
     0
  9
$CMLSCALE
 40
20.0
  9
$PROXYGRAPHICS
 70
     1
  9
$MEASUREMENT
 70
     1
  9
$CELWEIGHT
370
    -1
  9
$ENDCAPS
280
     0
  9
$JOINSTYLE
280
     0
  9
$LWDISPLAY
290
     1
  9
$INSUNITS
 70
     4
  9
$HYPERLINKBASE
  1

  9
$STYLESHEET
  1

  9
$XEDIT
290
     1
  9
$CEPSNTYPE
380
     0
  9
$PSTYLEMODE
290
     1
  9
$FINGERPRINTGUID
  2
{4837c07f-890d-4d46-9f49-51c16c115539}
  9
$VERSIONGUID
  2
{FAEB1C32-E019-11D5-929B-00C0DF256EC4}
  9
$EXTNAMES
290
     1
  9
$PSVPSCALE
 40
0.0
  9
$OLESTARTUP
290
     0
  0
ENDSEC
  0
SECTION
  2
CLASSES
  0
CLASS
  1
ACDBDICTIONARYWDFLT
  2
AcDbDictionaryWithDefault
  3
ObjectDBX Classes
 90
        0
280
     0
281
     0
  0
CLASS
  1
VISUALSTYLE
  2
AcDbVisualStyle
  3
ObjectDBX Classes
 90
     4095
280
     0
281
     0
  0
CLASS
  1
MATERIAL
  2
AcDbMaterial
  3
ObjectDBX Classes
 90
     1153
280
     0
281
     0
  0
CLASS
  1
SCALE
  2
AcDbScale
  3
ObjectDBX Classes
 90
     1153
280
     0
281
     0
  0
CLASS
  1
TABLESTYLE
  2
AcDbTableStyle
  3
ObjectDBX Classes
 90
     4095
280
     0
281
     0
  0
CLASS
  1
MLEADERSTYLE
  2
AcDbMLeaderStyle
  3
ACDB_MLEADERSTYLE_CLASS
 90
     4095
280
     0
281
     0
  0
CLASS
  1
SUN
  2
AcDbSun
  3
SCENEOE
 90
     1153
280
     0
281
     0
  0
CLASS
  1
ACDBPLACEHOLDER
  2
AcDbPlaceHolder
  3
ObjectDBX Classes
 90
        0
280
     0
281
     0
  0
CLASS
  1
LAYOUT
  2
AcDbLayout
  3
ObjectDBX Classes
 90
        0
280
     0
281
     0
  0
ENDSEC
  0
SECTION
  2
TABLES
  0
TABLE
  2
VPORT
  5
8
330
0
100
AcDbSymbolTable
 70
     1
  0
VPORT
  5
29
330
8
100
AcDbSymbolTableRecord
100
AcDbViewportTableRecord
  2
*Active
 70
     0
 10
0.0
 20
0.0
 11
1.0
 21
1.0
 12
139.7
 22
107.95
 13
0.0
 23
0.0
 14
10.0
 24
10.0
 15
10.0
 25
10.0
 16
0.0
 26
0.0
 36
1.0
 17
0.0
 27
0.0
 37
0.0
 40
215.9
 41
1.2941176471
 42
50.0
 43
0.0
 44
0.0
 50
0.0
 51
0.0
 71
     0
 72
  2000
 73
     1
 74
     3
 75
     0
 76
     0
 77
     0
 78
     0
281
     0
 65
     1
110
0.0
120
0.0
130
0.0
111
1.0
121
0.0
131
0.0
112
0.0
122
1.0
132
0.0
 79
     0
146
0.0
  0
ENDTAB
  0
TABLE
  2
LTYPE
  5
5
330
0
100
AcDbSymbolTable
 70
     6
  0
LTYPE
  5
14
330
5
100
AcDbSymbolTableRecord
100
AcDbLinetypeTableRecord
  2
ByBlock
 70
     0
  3

 72
    65
 73
     0
 40
0.0
  0
LTYPE
  5
15
330
5
100
AcDbSymbolTableRecord
100
AcDbLinetypeTableRecord
  2
ByLayer
 70
     0
  3

 72
    65
 73
     0
 40
0.0
  0
LTYPE
  5
16
330
5
100
AcDbSymbolTableRecord
100
AcDbLinetypeTableRecord
  2
Continuous
 70
     0
  3
Solid line
 72
    65
 73
     0
 40
0.0
  0
LTYPE
  5
6E
330
5
100
AcDbSymbolTableRecord
100
AcDbLinetypeTableRecord
  2
HIDDEN
 70
     0
  3
Hidden __ __ __ __ __ __ __ __ __ __ __ __ __ __
 72
    65
 73
     2
 40
1.905
 49
1.27
 74
     0
 49
-0.635
 74
     0
  0
LTYPE
  5
6F
330
5
100
AcDbSymbolTableRecord
100
AcDbLinetypeTableRecord
  2
PHANTOM
 70
     0
  3
Phantom ______  __  __  ______  __  __  ______
 72
    65
 73
     6
 40
12.7
 49
6.35
 74
     0
 49
-1.27
 74
     0
 49
1.27
 74
     0
 49
-1.27
 74
     0
 49
1.27
 74
     0
 49
-1.27
 74
     0
  0
LTYPE
  5
70
330
5
100
AcDbSymbolTableRecord
100
AcDbLinetypeTableRecord
  2
CENTER
 70
     0
  3
Center ____ _ ____ _ ____ _ ____ _ ____ _ ____
 72
    65
 73
     4
 40
10.16
 49
6.35
 74
     0
 49
-1.27
 74
     0
 49
1.27
 74
     0
 49
-1.27
 74
     0
  0
LTYPE
  5
71
330
5
100
AcDbSymbolTableRecord
100
AcDbLinetypeTableRecord
  2
CENTERX2
 70
     0
  3
Center (2x) ________  __  ________  __  _____
 72
    65
 73
     4
 40
20.32
 49
12.7
 74
     0
 49
-2.54
 74
     0
 49
2.54
 74
     0
 49
-2.54
 74
     0
  0
LTYPE
  5
72
330
5
100
AcDbSymbolTableRecord
100
AcDbLinetypeTableRecord
  2
DOT2
 70
     0
  3
Dot (.5x) ........................................
 72
    65
 73
     2
 40
0.635
 49
0.0
 74
     0
 49
-0.635
 74
     0
  0
ENDTAB
  0
TABLE
  2
LAYER
  5
2
330
0
100
AcDbSymbolTable
 70
    17
  0
LAYER
  5
10
330
2
100
AcDbSymbolTableRecord
100
AcDbLayerTableRecord
  2
0
 70
     0
 62
     7
  6
Continuous
370
    -3
390
F
  0
LAYER
  5
73
330
2
100
AcDbSymbolTableRecord
100
AcDbLayerTableRecord
  2
FORMAT
 70
     0
 62
     7
  6
Continuous
370
    -3
390
F
  0
LAYER
  5
74
330
2
100
AcDbSymbolTableRecord
100
AcDbLayerTableRecord
  2
YARDIMCI_GEOMETRI
 70
     0
 62
    -6
  6
Continuous
290
     0
370
    -3
390
F
  0
LAYER
  5
75
330
2
100
AcDbSymbolTableRecord
100
AcDbLayerTableRecord
  2
SAYFA_CERCEVESI
 70
     0
 62
     7
  6
Continuous
370
    25
390
F
  0
LAYER
  5
76
330
2
100
AcDbSymbolTableRecord
100
AcDbLayerTableRecord
  2
ANTET
 70
     0
 62
     7
  6
Continuous
370
    -3
390
F
  0
LAYER
  5
77
330
2
100
AcDbSymbolTableRecord
100
AcDbLayerTableRecord
  2
OLCU
 70
     0
 62
   150
  6
Continuous
370
    -3
390
F
  0
LAYER
  5
78
330
2
100
AcDbSymbolTableRecord
100
AcDbLayerTableRecord
  2
METIN
 70
     0
 62
    96
  6
Continuous
370
    -3
390
F
  0
LAYER
  5
79
330
2
100
AcDbSymbolTableRecord
100
AcDbLayerTableRecord
  2
BALON
 70
     0
 62
     5
  6
Continuous
370
    -3
390
F
  0
LAYER
  5
7A
330
2
100
AcDbSymbolTableRecord
100
AcDbLayerTableRecord
  2
VURGU
 70
     0
 62
     7
  6
Continuous
370
    -3
390
F
  0
LAYER
  5
7B
330
2
100
AcDbSymbolTableRecord
100
AcDbLayerTableRecord
  2
SILIK
 70
     0
 62
     7
  6
Continuous
370
    -3
390
F
  0
LAYER
  5
7C
330
2
100
AcDbSymbolTableRecord
100
AcDbLayerTableRecord
  2
MODEL
 70
     0
 62
     7
  6
Continuous
370
    -3
390
F
  0
LAYER
  5
7D
330
2
100
AcDbSymbolTableRecord
100
AcDbLayerTableRecord
  2
DETAYLANDıRMA
 70
     0
 62
   190
  6
Continuous
370
    -3
390
F
  0
LAYER
  5
7E
330
2
100
AcDbSymbolTableRecord
100
AcDbLayerTableRecord
  2
TOLERANS
 70
     0
 62
   230
  6
Continuous
370
    -3
390
F
  0
LAYER
  5
7F
330
2
100
AcDbSymbolTableRecord
100
AcDbLayerTableRecord
  2
MERKEZ_CIZGILERI
 70
     0
 62
    30
  6
Continuous
370
    -3
390
F
  0
LAYER
  5
80
330
2
100
AcDbSymbolTableRecord
100
AcDbLayerTableRecord
  2
KESIT-DETAY_CIZGILERI
 70
     0
 62
     7
  6
Continuous
370
    -3
390
F
  0
LAYER
  5
81
330
2
100
AcDbSymbolTableRecord
100
AcDbLayerTableRecord
  2
\U+041E\U+0421\U+0415\U+0412\U+042B\U+0415
 70
     0
 62
     7
  6
Continuous
370
    -3
390
F
  0
LAYER
  5
82
330
2
100
AcDbSymbolTableRecord
100
AcDbLayerTableRecord
  2
\U+0412\U+041E\U+0414\U+042F\U+041D\U+042B\U+0415_\U+0417\U+041D\U+0410\U+041A\U+0418
 70
     0
 62
    11
  6
Continuous
370
    -3
390
F
  0
ENDTAB
  0
TABLE
  2
STYLE
  5
3
330
0
100
AcDbSymbolTable
 70
     1
  0
STYLE
  5
11
330
3
100
AcDbSymbolTableRecord
100
AcDbTextStyleTableRecord
  2
Standard
 70
     0
 40
0.0
 41
1.0
 50
0.0
 71
     0
 42
3.5
  3
txt
  4

  0
ENDTAB
  0
TABLE
  2
VIEW
  5
6
330
0
100
AcDbSymbolTable
 70
     0
  0
ENDTAB
  0
TABLE
  2
UCS
  5
7
330
0
100
AcDbSymbolTable
 70
     0
  0
ENDTAB
  0
TABLE
  2
APPID
  5
9
330
0
100
AcDbSymbolTable
 70
     1
  0
APPID
  5
12
330
9
100
AcDbSymbolTableRecord
100
AcDbRegAppTableRecord
  2
ACAD
 70
     0
  0
ENDTAB
  0
TABLE
  2
DIMSTYLE
  5
A
330
0
100
AcDbSymbolTable
 70
     1
100
AcDbDimStyleTable
  0
DIMSTYLE
105
27
330
A
100
AcDbSymbolTableRecord
100
AcDbDimStyleTableRecord
  2
ISO-25
 70
     0
 41
2.5
 42
0.625
 43
3.75
 44
1.25
 73
     0
 74
     0
 77
     1
 78
     8
140
2.5
141
2.5
143
0.0393700787
147
0.625
171
     3
172
     1
178
     0
271
     2
272
     2
274
     3
278
    44
283
     0
284
     8
340
11
  0
ENDTAB
  0
TABLE
  2
BLOCK_RECORD
  5
1
330
0
100
AcDbSymbolTable
 70
     2
  0
BLOCK_RECORD
  5
1F
330
1
100
AcDbSymbolTableRecord
100
AcDbBlockTableRecord
  2
*Model_Space
340
22
  0
BLOCK_RECORD
  5
1B
330
1
100
AcDbSymbolTableRecord
100
AcDbBlockTableRecord
  2
*Paper_Space
340
1E
  0
BLOCK_RECORD
  5
23
330
1
100
AcDbSymbolTableRecord
100
AcDbBlockTableRecord
  2
*Paper_Space0
340
26
  0
BLOCK_RECORD
  5
88
330
1
100
AcDbSymbolTableRecord
100
AcDbBlockTableRecord
  2
SW_CENTERMARKSYMBOL_0
340
0
102
{BLKREFS
331
93
102
}
  0
ENDTAB
  0
ENDSEC
  0
SECTION
  2
BLOCKS
  0
BLOCK
  5
20
330
1F
100
AcDbEntity
  8
0
100
AcDbBlockBegin
  2
*Model_Space
 70
     0
 10
0.0
 20
0.0
 30
0.0
  3
*Model_Space
  1

  0
ENDBLK
  5
21
330
1F
100
AcDbEntity
  8
0
100
AcDbBlockEnd
  0
BLOCK
  5
1C
330
1B
100
AcDbEntity
 67
     1
  8
0
100
AcDbBlockBegin
  2
*Paper_Space
 70
     0
 10
0.0
 20
0.0
 30
0.0
  3
*Paper_Space
  1

  0
ENDBLK
  5
1D
330
1B
100
AcDbEntity
 67
     1
  8
0
100
AcDbBlockEnd
  0
BLOCK
  5
24
330
23
100
AcDbEntity
  8
0
100
AcDbBlockBegin
  2
*Paper_Space0
 70
     0
 10
0.0
 20
0.0
 30
0.0
  3
*Paper_Space0
  1

  0
ENDBLK
  5
25
330
23
100
AcDbEntity
  8
0
100
AcDbBlockEnd
  0
BLOCK
  5
89
330
88
100
AcDbEntity
  8
0
100
AcDbBlockBegin
  2
SW_CENTERMARKSYMBOL_0
 70
     0
 10
0.0
 20
0.0
 30
0.0
  3
SW_CENTERMARKSYMBOL_0
  1

  0
LINE
  5
8B
330
88
100
AcDbEntity
  8
FORMAT
 62
     0
100
AcDbLine
 10
0.0
 20
0.0
 30
0.0
 11
0.0
 21
2.5
 31
0.0
  0
LINE
  5
8C
330
88
100
AcDbEntity
  8
FORMAT
 62
     0
100
AcDbLine
 10
0.0
 20
0.0
 30
0.0
 11
-2.5
 21
0.0
 31
0.0
  0
LINE
  5
8D
330
88
100
AcDbEntity
  8
FORMAT
 62
     0
100
AcDbLine
 10
0.0
 20
0.0
 30
0.0
 11
0.0
 21
-2.5
 31
0.0
  0
LINE
  5
8E
330
88
100
AcDbEntity
  8
FORMAT
 62
     0
100
AcDbLine
 10
0.0
 20
0.0
 30
0.0
 11
2.5
 21
0.0
 31
0.0
  0
LINE
  5
8F
330
88
100
AcDbEntity
  8
FORMAT
 62
     0
100
AcDbLine
 10
0.0
 20
5.0
 30
0.0
 11
0.0
 21
202.5
 31
0.0
  0
LINE
  5
90
330
88
100
AcDbEntity
  8
FORMAT
 62
     0
100
AcDbLine
 10
-5.0
 20
0.0
 30
0.0
 11
-202.5
 21
0.0
 31
0.0
  0
LINE
  5
91
330
88
100
AcDbEntity
  8
FORMAT
 62
     0
100
AcDbLine
 10
0.0
 20
-5.0
 30
0.0
 11
0.0
 21
-202.5
 31
0.0
  0
LINE
  5
92
330
88
100
AcDbEntity
  8
FORMAT
 62
     0
100
AcDbLine
 10
5.0
 20
0.0
 30
0.0
 11
202.5
 21
0.0
 31
0.0
  0
ENDBLK
  5
8A
330
88
100
AcDbEntity
  8
0
100
AcDbBlockEnd
  0
ENDSEC
  0
SECTION
  2
ENTITIES
  0
CIRCLE
  5
83
330
1F
100
AcDbEntity
  8
0
  6
Continuous
 62
     7
370
    25
100
AcDbCircle
 10
139.395004093
 20
107.5851680021
 30
0.0
 40
200.0
  0
CIRCLE
  5
84
330
1F
100
AcDbEntity
  8
0
  6
Continuous
 62
     7
370
    25
100
AcDbCircle
 10
139.395004093
 20
107.5851680021
 30
0.0
 40
163.6
  0
CIRCLE
  5
85
330
1F
100
AcDbEntity
  8
0
  6
Continuous
 62
     7
370
    25
100
AcDbCircle
 10
139.395004093
 20
107.5851680021
 30
0.0
 40
163.2086062194205
  0
CIRCLE
  5
86
330
1F
100
AcDbEntity
  8
0
  6
Continuous
 62
     7
370
    25
100
AcDbCircle
 10
139.395004093
 20
107.5851680021
 30
0.0
 40
129.2913937805795
  0
CIRCLE
  5
87
330
1F
100
AcDbEntity
  8
0
  6
Continuous
 62
     7
370
    25
100
AcDbCircle
 10
139.395004093
 20
107.5851680021
 30
0.0
 40
128.9
  0
INSERT
  5
93
330
1F
100
AcDbEntity
  8
FORMAT
 62
     7
100
AcDbBlockReference
  2
SW_CENTERMARKSYMBOL_0
 10
139.395004093
 20
107.5851680021
 30
0.0
  0
LINE
  5
94
330
1F
100
AcDbEntity
  8
0
  6
Continuous
 62
     7
370
    25
100
AcDbLine
 10
-574.6868244618
 20
307.5851709823
 30
0.0
 11
-753.2831794828
 21
307.5851709823
 31
0.0
  0
LINE
  5
95
330
1F
100
AcDbEntity
  8
0
  6
Continuous
 62
     7
370
    25
100
AcDbLine
 10
-753.2831794828
 20
-92.4148349781
 30
0.0
 11
-574.6868244618
 21
-92.4148349781
 31
0.0
  0
ARC
  5
96
330
1F
100
AcDbEntity
  8
0
  6
Continuous
 62
     7
370
    25
100
AcDbCircle
 10
-574.6868243937
 20
305.5851680021
 30
0.0
 40
2.0
100
AcDbArc
 50
67.1790274906
 51
90.0
  0
ARC
  5
97
330
1F
100
AcDbEntity
  8
0
  6
Continuous
 62
     7
370
    25
100
AcDbCircle
 10
-574.6868243937
 20
-90.4148319979
 30
0.0
 40
2.000000000000024
100
AcDbArc
 50
270.0
 51
292.8209725094
  0
LINE
  5
98
330
1F
100
AcDbEntity
  8
0
  6
Continuous
 62
     7
370
    25
100
AcDbLine
 10
-573.9111184388
 20
-92.2582684775
 30
0.0
 11
-473.6552267581
 21
-50.0713824053
 31
0.0
  0
LINE
  5
99
330
1F
100
AcDbEntity
  8
0
  6
Continuous
 62
     7
370
    25
100
AcDbLine
 10
-473.6552267581
 20
265.2417184095
 30
0.0
 11
-573.9111184388
 21
307.4286044817
 31
0.0
  0
ARC
  5
9A
330
1F
100
AcDbEntity
  8
0
  6
Continuous
 62
     7
370
    25
100
AcDbCircle
 10
-472.8795210454
 20
267.0851680021
 30
0.0
 40
2.000000000000028
100
AcDbArc
 50
247.1790274906
 51
270.0
  0
ARC
  5
9B
330
1F
100
AcDbEntity
  8
0
  6
Continuous
 62
     7
370
    25
100
AcDbCircle
 10
-472.8795210454
 20
-51.9148319979
 30
0.0
 40
2.000000000000001
100
AcDbArc
 50
90.0
 51
112.8209725094
  0
LINE
  5
9C
330
1F
100
AcDbEntity
  8
0
  6
Continuous
 62
     7
370
    25
100
AcDbLine
 10
-323.2831723303
 20
265.08516681
 30
0.0
 11
-472.8795207351
 21
265.08516681
 31
0.0
  0
LINE
  5
9D
330
1F
100
AcDbEntity
  8
0
  6
Continuous
 62
     7
370
    25
100
AcDbLine
 10
-472.8795207351
 20
-49.9148308058
 30
0.0
 11
-323.2831723303
 21
-49.9148308058
 31
0.0
  0
LINE
  5
9E
330
1F
100
AcDbEntity
  8
0
  6
Continuous
 62
     7
370
    25
100
AcDbLine
 10
-753.2831794828
 20
307.5851709823
 30
0.0
 11
-753.2831794828
 21
-92.4148349781
 31
0.0
  0
LINE
  5
9F
330
1F
100
AcDbEntity
  8
0
  6
Continuous
 62
     7
370
    25
100
AcDbLine
 10
-323.2831723303
 20
265.08516681
 30
0.0
 11
-323.2831723303
 21
-49.9148308058
 31
0.0
  0
LINE
  5
A0
330
1F
100
AcDbEntity
  8
0
  6
Continuous
 62
     1
370
    25
100
AcDbLine
 10
-574.6868244618
 20
307.5851709823
 30
0.0
 11
-574.6868244618
 21
-92.4148349781
 31
0.0
  0
LINE
  5
A1
330
1F
100
AcDbEntity
  8
0
  6
Continuous
 62
     1
370
    25
100
AcDbLine
 10
-573.9111184388
 20
307.4286044817
 30
0.0
 11
-573.9111184388
 21
-92.2582684775
 31
0.0
  0
LINE
  5
A2
330
1F
100
AcDbEntity
  8
0
  6
Continuous
 62
     1
370
    25
100
AcDbLine
 10
-473.6552267581
 20
265.2417184095
 30
0.0
 11
-473.6552267581
 21
-50.0713824053
 31
0.0
  0
LINE
  5
A3
330
1F
100
AcDbEntity
  8
0
  6
Continuous
 62
     1
370
    25
100
AcDbLine
 10
-472.8795207351
 20
265.08516681
 30
0.0
 11
-472.8795207351
 21
-49.9148308058
 31
0.0
  0
LINE
  5
A4
330
1F
100
AcDbEntity
  8
0
  6
Continuous
 62
     7
370
    25
100
AcDbLine
 10
820.1245205743
 20
-92.4148349781
 30
0.0
 11
998.7208755953
 21
-92.4148349781
 31
0.0
  0
LINE
  5
A5
330
1F
100
AcDbEntity
  8
0
  6
Continuous
 62
     7
370
    25
100
AcDbLine
 10
998.7208755953
 20
307.5851709823
 30
0.0
 11
820.1245205743
 21
307.5851709823
 31
0.0
  0
ARC
  5
A6
330
1F
100
AcDbEntity
  8
0
  6
Continuous
 62
     7
370
    25
100
AcDbCircle
 10
820.1245205062
 20
-90.4148319979
 30
0.0
 40
2.0
100
AcDbArc
 50
247.1790274907
 51
270.0
  0
ARC
  5
A7
330
1F
100
AcDbEntity
  8
0
  6
Continuous
 62
     7
370
    25
100
AcDbCircle
 10
820.1245205062
 20
305.5851680021
 30
0.0
 40
2.0
100
AcDbArc
 50
90.0
 51
112.8209725094
  0
LINE
  5
A8
330
1F
100
AcDbEntity
  8
0
  6
Continuous
 62
     7
370
    25
100
AcDbLine
 10
819.3488145513
 20
307.4286044817
 30
0.0
 11
719.0929228706
 21
265.2417184095
 31
0.0
  0
LINE
  5
A9
330
1F
100
AcDbEntity
  8
0
  6
Continuous
 62
     7
370
    25
100
AcDbLine
 10
719.0929228706
 20
-50.0713824053
 30
0.0
 11
819.3488145513
 21
-92.2582684775
 31
0.0
  0
ARC
  5
AA
330
1F
100
AcDbEntity
  8
0
  6
Continuous
 62
     7
370
    25
100
AcDbCircle
 10
718.3172171579
 20
-51.9148319979
 30
0.0
 40
2.000000000000024
100
AcDbArc
 50
67.1790274906
 51
90.0
  0
ARC
  5
AB
330
1F
100
AcDbEntity
  8
0
  6
Continuous
 62
     7
370
    25
100
AcDbCircle
 10
718.3172171579
 20
267.0851680021
 30
0.0
 40
2.00000000000005
100
AcDbArc
 50
270.0
 51
292.8209725094
  0
LINE
  5
AC
330
1F
100
AcDbEntity
  8
0
  6
Continuous
 62
     7
370
    25
100
AcDbLine
 10
568.7208684427
 20
-49.9148308058
 30
0.0
 11
718.3172168476
 21
-49.9148308058
 31
0.0
  0
LINE
  5
AD
330
1F
100
AcDbEntity
  8
0
  6
Continuous
 62
     7
370
    25
100
AcDbLine
 10
718.3172168476
 20
265.08516681
 30
0.0
 11
568.7208684427
 21
265.08516681
 31
0.0
  0
LINE
  5
AE
330
1F
100
AcDbEntity
  8
0
  6
Continuous
 62
     7
370
    25
100
AcDbLine
 10
998.7208755953
 20
107.5851680021
 30
0.0
 11
998.7208755953
 21
307.5851709823
 31
0.0
  0
LINE
  5
AF
330
1F
100
AcDbEntity
  8
0
  6
Continuous
 62
     7
370
    25
100
AcDbLine
 10
998.7208755953
 20
-92.4148349781
 30
0.0
 11
998.7208755953
 21
107.5851680021
 31
0.0
  0
LINE
  5
B0
330
1F
100
AcDbEntity
  8
0
  6
Continuous
 62
     7
370
    25
100
AcDbLine
 10
568.7208684427
 20
107.5851680021
 30
0.0
 11
568.7208684427
 21
265.08516681
 31
0.0
  0
LINE
  5
B1
330
1F
100
AcDbEntity
  8
0
  6
Continuous
 62
     7
370
    25
100
AcDbLine
 10
568.7208684427
 20
-49.9148308058
 30
0.0
 11
568.7208684427
 21
107.5851680021
 31
0.0
  0
LINE
  5
B2
330
1F
100
AcDbEntity
  8
0
  6
Continuous
 62
     1
370
    25
100
AcDbLine
 10
820.1245205743
 20
107.5851680021
 30
0.0
 11
820.1245205743
 21
307.5851709823
 31
0.0
  0
LINE
  5
B3
330
1F
100
AcDbEntity
  8
0
  6
Continuous
 62
     1
370
    25
100
AcDbLine
 10
820.1245205743
 20
-92.4148349781
 30
0.0
 11
820.1245205743
 21
107.5851680021
 31
0.0
  0
LINE
  5
B4
330
1F
100
AcDbEntity
  8
0
  6
Continuous
 62
     1
370
    25
100
AcDbLine
 10
819.3488145513
 20
107.5851680021
 30
0.0
 11
819.3488145513
 21
307.4286044817
 31
0.0
  0
LINE
  5
B5
330
1F
100
AcDbEntity
  8
0
  6
Continuous
 62
     1
370
    25
100
AcDbLine
 10
819.3488145513
 20
-92.2582684775
 30
0.0
 11
819.3488145513
 21
107.5851680021
 31
0.0
  0
LINE
  5
B6
330
1F
100
AcDbEntity
  8
0
  6
Continuous
 62
     1
370
    25
100
AcDbLine
 10
719.0929228706
 20
107.5851680021
 30
0.0
 11
719.0929228706
 21
265.2417184095
 31
0.0
  0
LINE
  5
B7
330
1F
100
AcDbEntity
  8
0
  6
Continuous
 62
     1
370
    25
100
AcDbLine
 10
719.0929228706
 20
-50.0713824053
 30
0.0
 11
719.0929228706
 21
107.5851680021
 31
0.0
  0
LINE
  5
B8
330
1F
100
AcDbEntity
  8
0
  6
Continuous
 62
     1
370
    25
100
AcDbLine
 10
718.3172168476
 20
107.5851680021
 30
0.0
 11
718.3172168476
 21
265.08516681
 31
0.0
  0
LINE
  5
B9
330
1F
100
AcDbEntity
  8
0
  6
Continuous
 62
     1
370
    25
100
AcDbLine
 10
718.3172168476
 20
-49.9148308058
 30
0.0
 11
718.3172168476
 21
107.5851680021
 31
0.0
  0
LINE
  5
BA
330
1F
100
AcDbEntity
  8
0
  6
Continuous
 62
     7
370
    25
100
AcDbLine
 10
339.3950070733
 20
735.0321525208
 30
0.0
 11
339.3950070733
 21
913.6285075418
 31
0.0
  0
LINE
  5
BB
330
1F
100
AcDbEntity
  8
0
  6
Continuous
 62
     7
370
    25
100
AcDbLine
 10
-60.6049988872
 20
913.6285075418
 30
0.0
 11
-60.6049988872
 21
735.0321525208
 31
0.0
  0
ARC
  5
BC
330
1F
100
AcDbEntity
  8
0
  6
Continuous
 62
     7
370
    25
100
AcDbCircle
 10
337.395004093
 20
735.0321524527
 30
0.0
 40
2.0
100
AcDbArc
 50
337.1790274906
 51
0.0
  0
ARC
  5
BD
330
1F
100
AcDbEntity
  8
0
  6
Continuous
 62
     7
370
    25
100
AcDbCircle
 10
-58.604995907
 20
735.0321524527
 30
0.0
 40
2.0
100
AcDbArc
 50
180.0
 51
202.8209725094
  0
LINE
  5
BE
330
1F
100
AcDbEntity
  8
0
  6
Continuous
 62
     7
370
    25
100
AcDbLine
 10
-60.4484323865
 20
734.2564464979
 30
0.0
 11
-18.2615463144
 21
634.0005548171
 31
0.0
  0
LINE
  5
BF
330
1F
100
AcDbEntity
  8
0
  6
Continuous
 62
     7
370
    25
100
AcDbLine
 10
297.0515545005
 20
634.0005548171
 30
0.0
 11
339.2384405726
 21
734.2564464979
 31
0.0
  0
ARC
  5
C0
330
1F
100
AcDbEntity
  8
0
  6
Continuous
 62
     7
370
    25
100
AcDbCircle
 10
298.895004093
 20
633.2248491045
 30
0.0
 40
2.00000000000005
100
AcDbArc
 50
157.1790274906
 51
180.0
  0
ARC
  5
C1
330
1F
100
AcDbEntity
  8
0
  6
Continuous
 62
     7
370
    25
100
AcDbCircle
 10
-20.104995907
 20
633.2248491045
 30
0.0
 40
2.000000000000024
100
AcDbArc
 50
0.0
 51
22.8209725094
  0
LINE
  5
C2
330
1F
100
AcDbEntity
  8
0
  6
Continuous
 62
     7
370
    25
100
AcDbLine
 10
296.895002901
 20
483.6285003893
 30
0.0
 11
296.895002901
 21
633.2248487942
 31
0.0
  0
LINE
  5
C3
330
1F
100
AcDbEntity
  8
0
  6
Continuous
 62
     7
370
    25
100
AcDbLine
 10
-18.1049947149
 20
633.2248487942
 30
0.0
 11
-18.1049947149
 21
483.6285003893
 31
0.0
  0
LINE
  5
C4
330
1F
100
AcDbEntity
  8
0
  6
Continuous
 62
     7
370
    25
100
AcDbLine
 10
339.3950070733
 20
913.6285075418
 30
0.0
 11
-60.6049988872
 21
913.6285075418
 31
0.0
  0
LINE
  5
C5
330
1F
100
AcDbEntity
  8
0
  6
Continuous
 62
     7
370
    25
100
AcDbLine
 10
296.895002901
 20
483.6285003893
 30
0.0
 11
-18.1049947149
 21
483.6285003893
 31
0.0
  0
LINE
  5
C6
330
1F
100
AcDbEntity
  8
0
  6
Continuous
 62
     1
370
    25
100
AcDbLine
 10
339.3950070733
 20
735.0321525208
 30
0.0
 11
-60.6049988872
 21
735.0321525208
 31
0.0
  0
LINE
  5
C7
330
1F
100
AcDbEntity
  8
0
  6
Continuous
 62
     1
370
    25
100
AcDbLine
 10
339.2384405726
 20
734.2564464979
 30
0.0
 11
-60.4484323865
 21
734.2564464979
 31
0.0
  0
LINE
  5
C8
330
1F
100
AcDbEntity
  8
0
  6
Continuous
 62
     1
370
    25
100
AcDbLine
 10
297.0515545005
 20
634.0005548171
 30
0.0
 11
-18.2615463144
 21
634.0005548171
 31
0.0
  0
LINE
  5
C9
330
1F
100
AcDbEntity
  8
0
  6
Continuous
 62
     1
370
    25
100
AcDbLine
 10
296.895002901
 20
633.2248487942
 30
0.0
 11
-18.1049947149
 21
633.2248487942
 31
0.0
  0
LINE
  5
CA
330
1F
100
AcDbEntity
  8
0
  6
Continuous
 62
     7
370
    25
100
AcDbLine
 10
-60.6049988872
 20
-529.2713752042
 30
0.0
 11
-60.6049988872
 21
-707.8677302252
 31
0.0
  0
LINE
  5
CB
330
1F
100
AcDbEntity
  8
0
  6
Continuous
 62
     7
370
    25
100
AcDbLine
 10
339.3950070733
 20
-707.8677302252
 30
0.0
 11
339.3950070733
 21
-529.2713752042
 31
0.0
  0
ARC
  5
CC
330
1F
100
AcDbEntity
  8
0
  6
Continuous
 62
     7
370
    25
100
AcDbCircle
 10
-58.604995907
 20
-529.2713751361
 30
0.0
 40
2.0
100
AcDbArc
 50
157.1790274906
 51
180.0
  0
ARC
  5
CD
330
1F
100
AcDbEntity
  8
0
  6
Continuous
 62
     7
370
    25
100
AcDbCircle
 10
337.395004093
 20
-529.2713751361
 30
0.0
 40
2.0
100
AcDbArc
 50
0.0
 51
22.8209725094
  0
LINE
  5
CE
330
1F
100
AcDbEntity
  8
0
  6
Continuous
 62
     7
370
    25
100
AcDbLine
 10
339.2384405726
 20
-528.4956691812
 30
0.0
 11
297.0515545005
 21
-428.2397775005
 31
0.0
  0
LINE
  5
CF
330
1F
100
AcDbEntity
  8
0
  6
Continuous
 62
     7
370
    25
100
AcDbLine
 10
-18.2615463144
 20
-428.2397775005
 30
0.0
 11
-60.4484323865
 21
-528.4956691812
 31
0.0
  0
ARC
  5
D0
330
1F
100
AcDbEntity
  8
0
  6
Continuous
 62
     7
370
    25
100
AcDbCircle
 10
-20.104995907
 20
-427.4640717878
 30
0.0
 40
2.0
100
AcDbArc
 50
337.1790274907
 51
0.0
  0
ARC
  5
D1
330
1F
100
AcDbEntity
  8
0
  6
Continuous
 62
     7
370
    25
100
AcDbCircle
 10
298.895004093
 20
-427.4640717878
 30
0.0
 40
2.000000000000006
100
AcDbArc
 50
180.0
 51
202.8209725094
  0
LINE
  5
D2
330
1F
100
AcDbEntity
  8
0
  6
Continuous
 62
     7
370
    25
100
AcDbLine
 10
-18.1049947149
 20
-277.8677230726
 30
0.0
 11
-18.1049947149
 21
-427.4640714775
 31
0.0
  0
LINE
  5
D3
330
1F
100
AcDbEntity
  8
0
  6
Continuous
 62
     7
370
    25
100
AcDbLine
 10
296.895002901
 20
-427.4640714775
 30
0.0
 11
296.895002901
 21
-277.8677230726
 31
0.0
  0
LINE
  5
D4
330
1F
100
AcDbEntity
  8
0
  6
Continuous
 62
     7
370
    25
100
AcDbLine
 10
-60.6049988872
 20
-707.8677302252
 30
0.0
 11
339.3950070733
 21
-707.8677302252
 31
0.0
  0
LINE
  5
D5
330
1F
100
AcDbEntity
  8
0
  6
Continuous
 62
     7
370
    25
100
AcDbLine
 10
-18.1049947149
 20
-277.8677230726
 30
0.0
 11
296.895002901
 21
-277.8677230726
 31
0.0
  0
LINE
  5
D6
330
1F
100
AcDbEntity
  8
0
  6
Continuous
 62
     1
370
    25
100
AcDbLine
 10
-60.6049988872
 20
-529.2713752042
 30
0.0
 11
339.3950070733
 21
-529.2713752042
 31
0.0
  0
LINE
  5
D7
330
1F
100
AcDbEntity
  8
0
  6
Continuous
 62
     1
370
    25
100
AcDbLine
 10
-60.4484323865
 20
-528.4956691812
 30
0.0
 11
339.2384405726
 21
-528.4956691812
 31
0.0
  0
LINE
  5
D8
330
1F
100
AcDbEntity
  8
0
  6
Continuous
 62
     1
370
    25
100
AcDbLine
 10
-18.2615463144
 20
-428.2397775005
 30
0.0
 11
297.0515545005
 21
-428.2397775005
 31
0.0
  0
LINE
  5
D9
330
1F
100
AcDbEntity
  8
0
  6
Continuous
 62
     1
370
    25
100
AcDbLine
 10
-18.1049947149
 20
-427.4640714775
 30
0.0
 11
296.895002901
 21
-427.4640714775
 31
0.0
  0
LINE
  5
DA
330
1F
100
AcDbEntity
  8
0
  6
Continuous
 62
     7
370
    25
100
AcDbLine
 10
855.3445528863
 20
-310.1146043846
 30
0.0
 11
729.0578591558
 21
-237.2108478941
 31
0.0
  0
LINE
  5
DB
330
1F
100
AcDbEntity
  8
0
  6
Continuous
 62
     7
370
    25
100
AcDbLine
 10
529.0741186181
 20
-583.6303947921
 30
0.0
 11
655.3608123486
 21
-656.5341512827
 31
0.0
  0
SPLINE
  5
DC
330
1F
100
AcDbEntity
  8
0
  6
Continuous
 62
     7
370
    25
100
AcDbSpline
210
0.0
220
0.0
230
1.0
 70
     8
 71
     3
 72
    10
 73
     6
 74
     0
 42
0.000000001
 43
0.00000001
 40
0.0
 40
0.0
 40
0.0
 40
0.0
 40
0.2482737597342321
 40
0.8739143212904957
 40
1.0
 40
1.0
 40
1.0
 40
1.0
 10
872.0498777621026
 20
-323.6676827923853
 30
0.0
 10
871.6282882034461
 20
-323.1932681604213
 30
0.0
 10
870.1443087711817
 20
-321.5233464516314
 30
0.0
 10
868.3422479030908
 20
-319.7488960384603
 30
0.0
 10
866.9075459363434
 20
-318.5337570496745
 30
0.0
 10
866.6669059778935
 20
-318.3299439912487
 30
0.0
  0
SPLINE
  5
DD
330
1F
100
AcDbEntity
  8
0
  6
Continuous
 62
     7
370
    25
100
AcDbSpline
210
0.0
220
0.0
230
1.0
 70
     8
 71
     3
 72
    10
 73
     6
 74
     0
 42
0.000000001
 43
0.00000001
 40
0.0
 40
0.0
 40
0.0
 40
0.0
 40
0.3362702117376732
 40
0.9293160113857402
 40
1.0
 40
1.0
 40
1.0
 40
1.0
 10
668.880815391232
 20
-662.4591121354331
 30
0.0
 10
669.726899899745
 20
-662.7325667955093
 30
0.0
 10
672.065138177478
 20
-663.4882858129137
 30
0.0
 10
674.6551828470317
 20
-664.1470444177726
 30
0.0
 10
676.4266304836331
 20
-664.4564449653578
 30
0.0
 10
676.6152810260534
 20
-664.489394616209
 30
0.0
  0
LINE
  5
DE
330
1F
100
AcDbEntity
  8
0
  6
Continuous
 62
     7
370
    25
100
AcDbLine
 10
690.2496811522
 20
-666.0412420418
 30
0.0
 11
775.0003132321
 21
-668.4614750996
 31
0.0
  0
LINE
  5
DF
330
1F
100
AcDbEntity
  8
0
  6
Continuous
 62
     7
370
    25
100
AcDbLine
 10
925.5028370228
 20
-407.7552113582
 30
0.0
 11
881.0247620271
 21
-335.5733014416
 31
0.0
  0
LINE
  5
E0
330
1F
100
AcDbEntity
  8
0
  6
Continuous
 62
     7
370
    25
100
AcDbLine
 10
1011.8655096671
 20
-449.5456696605
 30
0.0
 11
917.7887862677
 21
-395.2363332488
 31
0.0
  0
LINE
  5
E1
330
1F
100
AcDbEntity
  8
0
  6
Continuous
 62
     7
370
    25
100
AcDbLine
 10
760.3015866431
 20
-668.0417305371
 30
0.0
 11
854.3783100424
 21
-722.3510669489
 31
0.0
  0
LWPOLYLINE
  5
E2
330
1F
100
AcDbEntity
  8
0
  6
Continuous
 62
     7
370
    25
100
AcDbPolyline
 90
      151
 70
   128
 43
0.0
 10
487.6446305423
 20
-492.0614337419
 10
487.7686792542
 20
-485.1511860102
 10
488.1406146556
 20
-478.1098334011
 10
488.7597834703
 20
-470.9497303336
 10
489.6250898804
 20
-463.6834410728
 10
490.7350271359
 20
-456.3237093143
 10
492.0876459452
 20
-448.8834460142
 10
493.6805650112
 20
-441.3757126598
 10
495.5110026421
 20
-433.8136649979
 10
497.5757346038
 20
-426.2105864919
 10
499.8711468041
 20
-418.5798001125
 10
502.393214219
 20
-410.9347017962
 10
505.1375114293
 20
-403.2886996096
 10
508.099212621
 20
-395.6552137489
 10
511.2731337317
 20
-388.0476339583
 10
514.6537113774
 20
-380.479295193
 10
518.2349923156
 20
-372.9634897857
 10
522.0107177394
 20
-365.5133944502
 10
525.974260057
 20
-358.1420763588
 10
530.1186545015
 20
-350.8624809783
 10
534.4366307415
 20
-343.6873712357
 10
538.9206234179
 20
-336.6293275191
 10
543.5627616066
 20
-329.7007415933
 10
548.3549004291
 20
-322.9137740166
 10
553.2886368576
 20
-316.2803085145
 10
558.3553097146
 20
-309.8120128169
 10
563.5460365519
 20
-303.520207862
 10
568.8517031134
 20
-297.4159468831
 10
574.2630107507
 20
-291.5099271995
 10
579.7704553494
 20
-285.8125267171
 10
585.3643852813
 20
-280.3337339708
 10
591.0349829648
 20
-275.0831466019
 10
596.7722991095
 20
-270.0699880917
 10
602.5662685212
 20
-265.3030621352
 10
608.4067285409
 20
-260.7907176612
 10
614.2834322162
 20
-256.5408655643
 10
620.1860687156
 20
-252.5609790864
 10
626.1042834147
 20
-248.8580335524
 10
632.0276943592
 20
-245.4385212006
 10
637.9459090582
 20
-242.3084414881
 10
643.8485455577
 20
-239.4732889259
 10
649.725249233
 20
-236.9380433842
 10
655.5657092527
 20
-234.7071362535
 10
661.3596786643
 20
-232.7844875189
 10
667.096994809
 20
-231.1734818077
 10
672.7675924926
 20
-229.8769364509
 10
678.3615224244
 20
-228.8971151733
 10
683.8689670232
 20
-228.235755472
 10
689.2802746605
 20
-227.8940123449
 10
694.585941222
 20
-227.8724811031
 10
699.7766680593
 20
-228.1712004181
 10
704.8433409163
 20
-228.7896401526
 10
709.7770773448
 20
-229.7267348251
 10
714.5692161673
 20
-230.9808166881
 10
719.211354356
 20
-232.5497039456
 10
723.6953470323
 20
-234.4306399159
 10
728.0133232724
 20
-236.6203204096
 10
732.1577177169
 20
-239.1148998164
 10
736.1212600344
 20
-241.9100093553
 10
739.8969854583
 20
-245.0007449081
 10
743.4782663965
 20
-248.381691357
 10
746.8588440422
 20
-252.0468982532
 10
750.0327651528
 20
-255.9899467311
 10
752.9944663445
 20
-260.2039251821
 10
755.7387635549
 20
-264.681429253
 10
758.2608309698
 20
-269.4146105139
 10
760.5562431701
 20
-274.3951703785
 10
762.6209751318
 20
-279.614360104
 10
764.4514127626
 20
-285.0630294619
 10
766.0443318287
 20
-290.73161761
 10
767.396950638
 20
-296.6101804746
 10
768.5068878935
 20
-302.6884059555
 10
769.3721943036
 20
-308.9556337009
 10
769.9913631183
 20
-315.4008596715
 10
770.3632985197
 20
-322.0127848067
 10
770.4873472316
 20
-328.7798089443
 10
770.3632985197
 20
-335.690056676
 10
769.9913631183
 20
-342.7314092851
 10
769.3721943036
 20
-349.8915123526
 10
768.5068878935
 20
-357.1578016134
 10
767.396950638
 20
-364.5175333719
 10
766.0443318287
 20
-371.957796672
 10
764.4514127626
 20
-379.4655300264
 10
762.6209751318
 20
-387.0275776883
 10
760.5562431701
 20
-394.6306561943
 10
758.2608309698
 20
-402.2614425737
 10
755.7387635549
 20
-409.90654089
 10
752.9944663445
 20
-417.5525430766
 10
750.0327651528
 20
-425.1860289373
 10
746.8588440422
 20
-432.7936087279
 10
743.4782663965
 20
-440.3619474932
 10
739.8969854583
 20
-447.8777529005
 10
736.1212600344
 20
-455.327848236
 10
732.1577177169
 20
-462.6991663274
 10
728.0133232724
 20
-469.9787617079
 10
723.6953470323
 20
-477.1538714505
 10
719.211354356
 20
-484.2119151671
 10
714.5692161673
 20
-491.1405010929
 10
709.7770773448
 20
-497.9274686697
 10
704.8433409163
 20
-504.5609341717
 10
699.7766680593
 20
-511.0292298693
 10
694.585941222
 20
-517.3210348242
 10
689.2802746605
 20
-523.4252958031
 10
683.8689670232
 20
-529.3313154867
 10
678.3615224244
 20
-535.0287159691
 10
672.7675924926
 20
-540.5075087154
 10
667.096994809
 20
-545.7580960843
 10
661.3596786643
 20
-550.7712545945
 10
655.5657092527
 20
-555.538180551
 10
649.725249233
 20
-560.050525025
 10
643.8485455577
 20
-564.3003771219
 10
637.9459090582
 20
-568.2802635998
 10
632.0276943592
 20
-571.9832091338
 10
626.1042834147
 20
-575.4027214857
 10
620.1860687156
 20
-578.5328011982
 10
614.2834322162
 20
-581.3679537603
 10
608.4067285409
 20
-583.903199302
 10
602.5662685212
 20
-586.1341064327
 10
596.7722991095
 20
-588.0567551673
 10
591.0349829648
 20
-589.6677608785
 10
585.3643852813
 20
-590.9643062353
 10
579.7704553494
 20
-591.9441275129
 10
574.2630107507
 20
-592.6054872142
 10
568.8517031134
 20
-592.9472303413
 10
563.5460365519
 20
-592.9687615831
 10
558.3553097146
 20
-592.6700422681
 10
553.2886368576
 20
-592.0516025336
 10
548.3549004291
 20
-591.1145078611
 10
543.5627616066
 20
-589.8604259981
 10
538.9206234179
 20
-588.2915387406
 10
534.4366307415
 20
-586.4106027703
 10
530.1186545015
 20
-584.2209222766
 10
525.974260057
 20
-581.7263428698
 10
522.0107177394
 20
-578.9312333309
 10
518.2349923156
 20
-575.8404977781
 10
514.6537113774
 20
-572.4595513292
 10
511.2731337317
 20
-568.794344433
 10
508.099212621
 20
-564.8512959551
 10
505.1375114293
 20
-560.6373175041
 10
502.393214219
 20
-556.1598134332
 10
499.8711468041
 20
-551.4266321723
 10
497.5757346038
 20
-546.4460723077
 10
495.5110026421
 20
-541.2268825822
 10
493.6805650112
 20
-535.7782132243
 10
492.0876459452
 20
-530.1096250762
 10
490.7350271359
 20
-524.2310622116
 10
489.6250898804
 20
-518.1528367307
 10
488.7597834703
 20
-511.8856089853
 10
488.1406146556
 20
-505.4403830147
 10
487.7686792542
 20
-498.8284578795
 10
487.6446305423
 20
-492.0614337419
  0
LWPOLYLINE
  5
E3
330
1F
100
AcDbEntity
  8
0
  6
Continuous
 62
     7
370
    25
100
AcDbPolyline
 90
      136
 70
   128
 43
0.0
 10
513.3833210695
 20
-477.2028039754
 10
513.50859204
 20
-470.9153526523
 10
513.884130997
 20
-464.4968856496
 10
514.5091371503
 20
-457.9612957886
 10
515.3822407273
 20
-451.3227480831
 10
516.5015556566
 20
-444.5956158652
 10
517.8646690312
 20
-437.7944648147
 10
519.4686200348
 20
-430.934026341
 10
521.3099210158
 20
-424.0291686872
 10
523.3846101705
 20
-417.0948330565
 10
525.688177786
 20
-410.1460366469
 10
528.2156399975
 20
-403.1978452814
 10
530.9615177147
 20
-396.2652912766
 10
533.9198787687
 20
-389.3633886549
 10
537.084295765
 20
-382.5071027231
 10
540.4479198408
 20
-375.7112709904
 10
544.0034806648
 20
-368.9906031687
 10
547.7432653635
 20
-362.3596690035
 10
551.6591764739
 20
-355.8328222323
 10
555.7427319425
 20
-349.424206669
 10
559.985091468
 20
-343.1476801599
 10
564.377061769
 20
-337.0168662956
 10
568.9091334628
 20
-331.0450296983
 10
573.5714968704
 20
-325.2450973167
 10
578.3540420166
 20
-319.6296340911
 10
583.24642185
 20
-314.2108064567
 10
588.2380390723
 20
-309.000341278
 10
593.3180777487
 20
-304.0095441022
 10
598.4755401857
 20
-299.2492048659
 10
603.6992522003
 20
-294.7296313556
 10
608.977903949
 20
-290.460625637
 10
614.3000617821
 20
-286.4514163755
 10
619.6542005121
 20
-282.7107010443
 10
625.0287218532
 20
-279.2465866106
 10
630.4119875129
 20
-276.0665582642
 10
635.7923381253
 20
-273.1775171573
 10
641.1581199222
 20
-270.585704171
 10
646.4977146968
 20
-268.2967434542
 10
651.7995537976
 20
-266.3155978427
 10
657.052160111
 20
-264.6465446241
 10
662.2441513538
 20
-263.2932101381
 10
667.3642901223
 20
-262.2585287171
 10
672.4014786246
 20
-261.5447213924
 10
677.3448139978
 20
-261.1533491316
 10
682.1835883082
 20
-261.0852641694
 10
686.9073227956
 20
-261.3405902384
 10
691.5057863126
 20
-261.9187970965
 10
695.9690163977
 20
-262.8186396915
 10
700.287350886
 20
-264.0381399134
 10
704.4514384454
 20
-265.5746717666
 10
708.4522543821
 20
-267.4249157444
 10
712.2811375186
 20
-269.5848497063
 10
715.9297954626
 20
-272.0498066738
 10
719.3903309482
 20
-274.8144413728
 10
722.6552365681
 20
-277.8727697768
 10
725.7174474568
 20
-281.2181751957
 10
728.5703360223
 20
-284.8433930661
 10
731.2077277515
 20
-288.740586999
 10
733.6238906728
 20
-292.9013183603
 10
735.8136091137
 20
-297.3165645288
 10
737.7721415539
 20
-301.9767645202
 10
739.4952311616
 20
-306.8718402808
 10
740.9791690141
 20
-311.9911693169
 10
742.2207098041
 20
-317.3236850681
 10
743.2171982801
 20
-322.8578176026
 10
743.9664533428
 20
-328.581598551
 10
744.4668628752
 20
-334.4826208098
 10
744.7173310592
 20
-340.548114013
 10
744.7173310592
 20
-346.7649312287
 10
744.4668628752
 20
-353.1196088417
 10
743.9664533428
 20
-359.5983916486
 10
743.2171982801
 20
-366.1872440788
 10
742.2207098041
 20
-372.8718977183
 10
740.9791690141
 20
-379.6378659536
 10
739.4952311616
 20
-386.4705131653
 10
737.7721415539
 20
-393.3550258405
 10
735.8136091137
 20
-400.2764992548
 10
733.6238906728
 20
-407.2199405211
 10
731.2077277515
 20
-414.1703142121
 10
728.5703360223
 20
-421.1125758193
 10
725.7174474568
 20
-428.0316687154
 10
722.6552365681
 20
-434.9126275701
 10
719.3903309482
 20
-441.740535765
 10
715.9297954626
 20
-448.5006196902
 10
712.2811375186
 20
-455.1782274511
 10
708.4522543821
 20
-461.7588957844
 10
704.4514384454
 20
-468.2283835193
 10
700.287350886
 20
-474.5726685328
 10
695.9690163977
 20
-480.7780116281
 10
691.5057863126
 20
-486.8309899918
 10
686.9073227956
 20
-492.7184698155
 10
682.1835883082
 20
-498.427703634
 10
677.3448139978
 20
-503.9463485737
 10
672.4014786246
 20
-509.2624298483
 10
667.3642901223
 20
-514.3644365753
 10
662.2441513538
 20
-519.2413415448
 10
657.052160111
 20
-523.8825525501
 10
651.7995537976
 20
-528.2780294938
 10
646.4977146968
 20
-532.4182570111
 10
641.1581199222
 20
-536.294261196
 10
635.7923381253
 20
-539.8976480038
 10
630.4119875129
 20
-543.2206274875
 10
625.0287218532
 20
-546.2559853736
 10
619.6542005121
 20
-548.997161197
 10
614.3000617821
 20
-551.4382028611
 10
608.977903949
 20
-553.5738262372
 10
603.6992522003
 20
-555.3994221004
 10
598.4755401857
 20
-556.911018105
 10
593.3180777487
 20
-558.1053582497
 10
588.2380390723
 20
-558.9798488835
 10
583.24642185
 20
-559.5325822765
 10
578.3540420166
 20
-559.7623761635
 10
573.5714968704
 20
-559.6687220286
 10
568.9091334628
 20
-559.251839856
 10
564.377061769
 20
-558.512621857
 10
559.985091468
 20
-557.4526689658
 10
555.7427319425
 20
-556.0742665054
 10
551.6591764739
 20
-554.3804237295
 10
547.7432653635
 20
-552.3747916895
 10
544.0034806648
 20
-550.0617210291
 10
540.4479198408
 20
-547.446216354
 10
537.084295765
 20
-544.5339423154
 10
533.9198787687
 20
-541.3312144793
 10
530.9615177147
 20
-537.8449628264
 10
528.2156399975
 20
-534.0827317516
 10
525.688177786
 20
-530.0526861411
 10
523.3846101705
 20
-525.7635322882
 10
521.3099210158
 20
-521.2245817683
 10
519.4686200348
 20
-516.4456449757
 10
517.8646690312
 20
-511.4370889123
 10
516.5015556566
 20
-506.2097550645
 10
515.3822407273
 20
-500.7749563559
 10
514.5091371503
 20
-495.1444725832
 10
513.884130997
 20
-489.3304994668
 10
513.50859204
 20
-483.3456205145
 10
513.3833210695
 20
-477.2028039754
  0
ARC
  5
E4
330
1F
100
AcDbEntity
  8
0
  6
Continuous
 62
     7
370
    25
100
AcDbCircle
 10
821.4809847019
 20
-368.6712309679
 30
0.0
 40
67.64332758659796
100
AcDbArc
 50
48.3182002593
 51
59.9590063757
  0
ARC
  5
E5
330
1F
100
AcDbEntity
  8
0
  6
Continuous
 62
     7
370
    25
100
AcDbCircle
 10
689.0960416313
 20
-598.0214626611
 30
0.0
 40
67.54110174168653
100
AcDbArc
 50
240.0345930156
 51
252.3391464008
  0
ARC
  5
E6
330
1F
100
AcDbEntity
  8
0
  6
Continuous
 62
     7
370
    25
100
AcDbCircle
 10
805.3730840264
 20
-382.9419562886
 30
0.0
 40
89.23263048367374
100
AcDbArc
 50
16.6880671181
 51
41.4893477409
  0
ARC
  5
E7
330
1F
100
AcDbEntity
  8
0
  6
Continuous
 62
     7
370
    25
100
AcDbCircle
 10
693.4190341442
 20
-574.8011866141
 30
0.0
 40
91.24984887474828
100
AcDbArc
 50
259.5225969732
 51
284.2326412361
  0
ARC
  5
E8
330
1F
100
AcDbEntity
  8
0
  6
Continuous
 62
     7
370
    25
100
AcDbCircle
 10
860.0419950311
 20
-447.6233019899
 30
0.0
 40
76.64585106116111
100
AcDbArc
 50
17.9980154934
 51
31.3429712392
  0
ARC
  5
E9
330
1F
100
AcDbEntity
  8
0
  6
Continuous
 62
     7
370
    25
100
AcDbCircle
 10
777.3198262591
 20
-602.8702816431
 30
0.0
 40
65.66134041524181
100
AcDbArc
 50
255.6975962658
 51
279.8404411015
  0
LWPOLYLINE
  5
EA
330
1F
100
AcDbEntity
  8
0
  6
Continuous
 62
     7
370
    25
100
AcDbPolyline
 90
       69
 70
   128
 43
0.0
 10
1011.8655096671
 20
-449.5456696605
 10
1012.3355734686
 20
-449.8202895414
 10
1015.9440918077
 20
-452.1577557016
 10
1019.3678014844
 20
-454.7937592099
 10
1022.5990686508
 20
-457.7224194508
 10
1025.6306703908
 20
-460.9372048914
 10
1028.4558474034
 20
-464.4309391695
 10
1031.068298735
 20
-468.1958223865
 10
1033.4621975835
 20
-472.2234584853
 10
1035.6321912994
 20
-476.5048613341
 10
1037.5734540684
 20
-481.0304699407
 10
1039.2816342284
 20
-485.7902001588
 10
1040.7529385631
 20
-490.7734142775
 10
1041.9840796182
 20
-495.9690031464
 10
1042.9722967752
 20
-501.3653724894
 10
1043.715398398
 20
-506.9504794102
 10
1044.2117196861
 20
-512.7118635684
 10
1044.4601648214
 20
-518.6366618214
 10
1044.4601648214
 20
-524.7116618335
 10
1044.2117196861
 20
-530.9233087338
 10
1043.715398398
 20
-537.2577332537
 10
1042.9722967752
 20
-543.700807046
 10
1041.9840796182
 20
-550.2381476321
 10
1040.7529385631
 20
-556.855181707
 10
1039.2816342284
 20
-563.537127652
 10
1037.5734540684
 20
-570.2690807029
 10
1035.6321912994
 20
-577.0360235944
 10
1033.4621975835
 20
-583.8228478582
 10
1031.068298735
 20
-590.6144207355
 10
1028.4558474034
 20
-597.3955760567
 10
1025.6306703908
 20
-604.1511902826
 10
1022.5990686508
 20
-610.866188588
 10
1019.3678014844
 20
-617.5255904882
 10
1015.9440918077
 20
-624.1145250487
 10
1012.3355734686
 20
-630.6182978009
 10
1008.5502965152
 20
-637.0223937845
 10
1004.5967113906
 20
-643.3125231737
 10
1000.4836373229
 20
-649.4746456093
 10
996.2202517884
 20
-655.4950310344
 10
991.816069438
 20
-661.3602110231
 10
987.2809210243
 20
-667.0571369547
 10
982.6249165224
 20
-672.5730613779
 10
977.8584556674
 20
-677.8957022719
 10
972.9921700016
 20
-683.0131669946
 10
968.0369149728
 20
-687.9140420168
 10
963.0037541287
 20
-692.5874020456
 10
957.903914336
 20
-697.0227993745
 10
952.7487765611
 20
-701.2103422095
 10
947.5498429422
 20
-705.1407015108
 10
942.3187150579
 20
-708.8050870357
 10
937.0670659389
 20
-712.1953365005
 10
931.8066132323
 20
-715.3038824028
 10
926.5490956586
 20
-718.1237777796
 10
921.3062450235
 20
-720.6487488675
 10
916.0897585593
 20
-722.8731380645
 10
910.9112793328
 20
-724.7920004125
 10
905.7823582147
 20
-726.4010525474
 10
900.7144446598
 20
-727.696690189
 10
895.7188419261
 20
-728.6760383273
 10
890.8067031233
 20
-729.3369048338
 10
885.9889837979
 20
-729.6778200013
 10
881.2764392988
 20
-729.6980015622
 10
876.6795826305
 20
-729.3974398565
 10
872.2086660139
 20
-728.7767746349
 10
867.8736729837
 20
-727.837409128
 10
863.6842762417
 20
-726.5814370372
 10
859.6498218516
 20
-725.0116516591
 10
855.7793081654
 20
-723.1315702186
 10
854.3783100424
 20
-722.3510669489
  0
LWPOLYLINE
  5
EB
330
1F
100
AcDbEntity
  8
0
  6
Continuous
 62
     1
370
    25
100
AcDbPolyline
 90
       71
 70
   128
 43
0.0
 10
866.4633340654
 20
-318.1518484229
 10
869.7649601271
 20
-321.2854478476
 10
873.1455377727
 20
-324.9506547437
 10
876.3194588834
 20
-328.8937032217
 10
879.2811600751
 20
-333.1076816727
 10
882.0254572855
 20
-337.5851857436
 10
884.5475247004
 20
-342.3183670045
 10
886.8429369007
 20
-347.2989268691
 10
888.9076688624
 20
-352.5181165946
 10
890.7381064932
 20
-357.9667859524
 10
892.3310255592
 20
-363.6353741005
 10
893.6836443685
 20
-369.5139369652
 10
894.793581624
 20
-375.5921624461
 10
895.6588880341
 20
-381.8593901915
 10
896.2780568489
 20
-388.304616162
 10
896.6499922503
 20
-394.9165412972
 10
896.7740409621
 20
-401.6835654348
 10
896.6499922503
 20
-408.5938131666
 10
896.2780568489
 20
-415.6351657756
 10
895.6588880341
 20
-422.7952688431
 10
894.793581624
 20
-430.061558104
 10
893.6836443685
 20
-437.4212898625
 10
892.3310255592
 20
-444.8615531625
 10
890.7381064932
 20
-452.369286517
 10
888.9076688624
 20
-459.9313341789
 10
886.8429369007
 20
-467.5344126849
 10
884.5475247004
 20
-475.1651990643
 10
882.0254572855
 20
-482.8102973805
 10
879.2811600751
 20
-490.4562995671
 10
876.3194588834
 20
-498.0897854278
 10
873.1455377727
 20
-505.6973652184
 10
869.7649601271
 20
-513.2657039837
 10
866.1836791888
 20
-520.781509391
 10
862.407953765
 20
-528.2316047266
 10
858.4444114475
 20
-535.602922818
 10
854.300017003
 20
-542.8825181985
 10
849.9820407629
 20
-550.0576279411
 10
845.4980480865
 20
-557.1156716577
 10
840.8559098978
 20
-564.0442575835
 10
836.0637710753
 20
-570.8312251602
 10
831.1300346468
 20
-577.4646906623
 10
826.0633617898
 20
-583.9329863598
 10
820.8726349526
 20
-590.2247913147
 10
815.566968391
 20
-596.3290522937
 10
810.1556607537
 20
-602.2350719772
 10
804.648216155
 20
-607.9324724596
 10
799.0542862231
 20
-613.411265206
 10
793.3836885396
 20
-618.6618525749
 10
787.6463723949
 20
-623.6750110851
 10
781.8524029832
 20
-628.4419370416
 10
776.0119429635
 20
-632.9542815155
 10
770.1352392882
 20
-637.2041336124
 10
764.2326027888
 20
-641.1840200903
 10
758.3143880897
 20
-644.8869656243
 10
752.3909771452
 20
-648.3064779762
 10
746.4727624462
 20
-651.4365576887
 10
740.5701259467
 20
-654.2717102509
 10
734.6934222715
 20
-656.8069557926
 10
728.8529622517
 20
-659.0378629233
 10
723.0589928401
 20
-660.9605116578
 10
717.3216766954
 20
-662.571517369
 10
711.6510790119
 20
-663.8680627259
 10
706.05714908
 20
-664.8478840034
 10
700.5497044812
 20
-665.5092437047
 10
695.1383968439
 20
-665.8509868318
 10
689.8327302824
 20
-665.8725180737
 10
684.6420034452
 20
-665.5737987586
 10
679.5753305881
 20
-664.9553590241
 10
674.6415941597
 20
-664.0182643517
 10
669.8494553371
 20
-662.7641824887
 10
668.6052803691
 20
-662.3792836883
  0
LWPOLYLINE
  5
EC
330
1F
100
AcDbEntity
  8
0
  6
Continuous
 62
     1
370
    25
100
AcDbPolyline
 90
       32
 70
   128
 43
0.0
 10
639.7329927285
 20
-537.2796506931
 10
639.7426865036
 20
-537.1534832044
 10
640.3676926569
 20
-530.6178933434
 10
641.240796234
 20
-523.9793456379
 10
642.3601111633
 20
-517.25221342
 10
643.7232245378
 20
-510.4510623696
 10
645.3271755415
 20
-503.5906238959
 10
647.1684765225
 20
-496.6857662421
 10
649.2431656772
 20
-489.7514306113
 10
651.5467332927
 20
-482.8026342017
 10
654.0741955042
 20
-475.8544428363
 10
656.8200732214
 20
-468.9218888314
 10
659.7784342753
 20
-462.0199862097
 10
662.9428512717
 20
-455.1637002779
 10
666.3064753475
 20
-448.3678685452
 10
669.8620361714
 20
-441.6472007236
 10
673.6018208702
 20
-435.0162665583
 10
677.5177319805
 20
-428.4894197871
 10
681.6012874492
 20
-422.0808042238
 10
685.8436469747
 20
-415.8042777148
 10
690.2356172757
 20
-409.6734638504
 10
694.7676889695
 20
-403.7016272531
 10
699.4300523771
 20
-397.9016948715
 10
704.2125975233
 20
-392.2862316459
 10
709.1049773566
 20
-386.8674040116
 10
714.096594579
 20
-381.6569388328
 10
719.1766332553
 20
-376.6661416571
 10
724.3340956924
 20
-371.9058024208
 10
729.557807707
 20
-367.3862289104
 10
734.8364594557
 20
-363.1172231918
 10
740.1586172888
 20
-359.1080139303
 10
744.2575471375
 20
-356.2181886046
  0
LWPOLYLINE
  5
ED
330
1F
100
AcDbEntity
  8
0
  6
Continuous
 62
     1
370
    25
100
AcDbPolyline
 90
       54
 70
   128
 43
0.0
 10
890.8474433208
 20
-357.31782223
 10
891.1806352317
 20
-358.3815585681
 10
892.7723109657
 20
-364.04571158
 10
894.123865567
 20
-369.9196750652
 10
895.2329388122
 20
-375.9931399673
 10
896.0975708726
 20
-382.255458101
 10
896.7162444619
 20
-388.695645198
 10
897.0878848354
 20
-395.3023968764
 10
897.2118387169
 20
-402.0641228602
 10
897.0878848354
 20
-408.9689629492
 10
896.7162444619
 20
-416.0048014695
 10
896.0975708726
 20
-423.1592938883
 10
895.2329388122
 20
-430.41989495
 10
894.123865567
 20
-437.7738685645
 10
892.7723109657
 20
-445.2083037769
 10
891.1806352317
 20
-452.7101664745
 10
889.3516305937
 20
-460.266288744
 10
887.2885107489
 20
-467.8634236233
 10
884.9949003264
 20
-475.4882298916
 10
882.4748032767
 20
-483.1273481125
 10
879.7326555556
 20
-490.767364137
 10
876.7732724405
 20
-498.394869935
 10
873.6018379939
 20
-505.9965000973
 10
870.223905063
 20
-513.5589135839
 10
866.6454268902
 20
-521.0688363132
 10
862.8726517458
 20
-528.513103738
 10
858.9122177583
 20
-535.8786486868
 10
854.7710686212
 20
-543.1525378583
 10
850.4564746657
 20
-550.3220326603
 10
845.9759907145
 20
-557.37454662
 10
841.3374876915
 20
-564.2977123074
 10
836.5490946701
 20
-571.0793782883
 10
831.619225215
 20
-577.7076425871
 10
826.5565141617
 20
-584.1708770153
 10
821.3698544953
 20
-590.4577545524
 10
816.0683393984
 20
-596.5572462976
 10
810.6612727877
 20
-602.4586275554
 10
805.1581324359
 20
-608.1515721292
 10
799.5685831421
 20
-613.6260838805
 10
793.9024240485
 20
-618.8725636454
 10
788.1695991774
 20
-623.8817909838
 10
782.3801658203
 20
-628.6449910978
 10
776.5442774165
 20
-633.1538082134
 10
770.6721756503
 20
-637.40032231
 10
764.7741588406
 20
-641.3770917037
 10
758.8605766729
 20
-645.077143921
 10
752.9418025402
 20
-648.4939794984
 10
747.0282203725
 20
-651.6216039208
 10
741.1302035628
 20
-654.4545397869
 10
735.2581017965
 20
-656.9878100778
 10
729.4222133928
 20
-659.2169662914
 10
723.6327800357
 20
-661.1381036514
 10
717.8999551646
 20
-662.7478550202
 10
715.8536887909
 20
-663.2501616819
  0
LWPOLYLINE
  5
EE
330
1F
100
AcDbEntity
  8
0
  6
Continuous
 62
     1
370
    25
100
AcDbPolyline
 90
       50
 70
   128
 43
0.0
 10
932.9373514393
 20
-423.9409562657
 10
933.0580600135
 20
-424.3081586201
 10
934.5308289511
 20
-429.2963250106
 10
935.7631817281
 20
-434.4970851409
 10
936.7523893361
 20
-439.8988143192
 10
937.4962285288
 20
-445.4894742093
 10
937.9930450423
 20
-451.2565831786
 10
938.241732522
 20
-457.1872731406
 10
938.241732522
 20
-463.2683119885
 10
937.9930450423
 20
-469.4861304027
 10
937.4962285288
 20
-475.8268515088
 10
936.7523893361
 20
-482.2763298504
 10
935.7631817281
 20
-488.8201738222
 10
934.5308289511
 20
-495.4437781828
 10
933.0580600135
 20
-502.1323673942
 10
931.3481834428
 20
-508.8710093175
 10
929.4049924555
 20
-515.6446806037
 10
927.2328387136
 20
-522.4382514916
 10
924.8365585681
 20
-529.236577056
 10
922.2215152054
 20
-536.024472877
 10
919.3935248906
 20
-542.7868032471
 10
916.358909651
 20
-549.5084750921
 10
913.1244340557
 20
-556.1744927184
 10
909.697321021
 20
-562.7699791079
 10
906.0852149314
 20
-569.280215458
 10
902.2961763718
 20
-575.6906746421
 10
898.3386557852
 20
-581.9870607507
 10
894.2214934732
 20
-588.1553151754
 10
889.9538721804
 20
-594.1816743995
 10
885.5453118262
 20
-600.0526912906
 10
881.0056536996
 20
-605.7552746429
 10
876.3450235812
 20
-611.276692216
 10
871.573826474
 20
-616.604610278
 10
866.7027018232
 20
-621.7271681272
 10
861.7425235156
 20
-626.6329172545
 10
856.7043577333
 20
-631.3109186792
 10
851.5994497821
 20
-635.7507262173
 10
846.4391858967
 20
-639.9424328661
 10
841.2350853376
 20
-643.8766997014
 10
835.9987575858
 20
-647.5447319184
 10
830.7418878553
 20
-650.9383480329
 10
825.4762064699
 20
-654.0499853916
 10
820.2134628517
 20
-656.8726786864
 10
814.9653998368
 20
-659.4001599534
 10
809.7437293102
 20
-661.6267631319
 10
804.5601002656
 20
-663.5475276749
 10
799.4260820131
 20
-665.1581839082
 10
794.3531319098
 20
-666.4551108223
 10
789.3525637505
 20
-667.4354273244
 10
788.5416768244
 20
-667.5655805064
  0
LWPOLYLINE
  5
EF
330
1F
100
AcDbEntity
  8
0
  6
Continuous
 62
     1
370
    25
100
AcDbPolyline
 90
       31
 70
   128
 43
0.0
 10
641.5366355004
 20
-536.0290885943
 10
642.0130213291
 20
-531.2957765168
 10
642.8840386371
 20
-524.6731086016
 10
644.0006772416
 20
-517.9620690483
 10
645.3605347721
 20
-511.1771855145
 10
646.9606398758
 20
-504.3331665946
 10
648.7975470479
 20
-497.4448196989
 10
650.8672628744
 20
-490.5270769018
 10
653.1653197894
 20
-483.5949128194
 10
655.6867339282
 20
-476.6633415634
 10
658.4260472737
 20
-469.7473711173
 10
661.3773276571
 20
-462.8619850852
 10
664.5341687575
 20
-456.0221001062
 10
667.8897533219
 20
-449.2425232739
 10
671.4368057508
 20
-442.5379369231
 10
675.167644781
 20
-435.9228621325
 10
679.0741834859
 20
-429.4116343896
 10
683.1479714224
 20
-423.0183488417
 10
687.3801788258
 20
-416.7568450849
 10
691.7616440248
 20
-410.6406980431
 10
696.2828787102
 20
-404.6831358383
 10
700.9340837396
 20
-398.8970793366
 10
705.7051912848
 20
-393.2950569798
 10
710.585864831
 20
-387.8891926184
 10
715.5655386901
 20
-382.6911948685
 10
720.6334259032
 20
-377.7123282153
 10
725.7785472162
 20
-372.9633841179
 10
730.9897626902
 20
-368.4546262591
 10
736.2557861894
 20
-364.1958308512
 10
741.565211723
 20
-360.1962105925
 10
744.076554082
 20
-358.4054884496
  0
LWPOLYLINE
  5
F0
330
1F
100
AcDbEntity
  8
0
  6
Continuous
 62
     1
370
    25
100
AcDbPolyline
 90
       57
 70
   128
 43
0.0
 10
923.443918692
 20
-404.4138534542
 10
925.2877063371
 20
-407.1299862181
 10
927.6816051857
 20
-411.1576223169
 10
929.8515989016
 20
-415.4390251657
 10
931.7928616705
 20
-419.9646337723
 10
933.5010418306
 20
-424.7243639904
 10
934.9723461652
 20
-429.7075781091
 10
936.2034872204
 20
-434.903166978
 10
937.1917043774
 20
-440.299536321
 10
937.9348060002
 20
-445.8846432418
 10
938.4311272883
 20
-451.6460274
 10
938.6795724235
 20
-457.570825653
 10
938.6795724235
 20
-463.6458256651
 10
938.4311272883
 20
-469.8574725654
 10
937.9348060002
 20
-476.1918970853
 10
937.1917043774
 20
-482.6349708776
 10
936.2034872204
 20
-489.1723114637
 10
934.9723461652
 20
-495.7893455386
 10
933.5010418306
 20
-502.4712914836
 10
931.7928616705
 20
-509.2032445345
 10
929.8515989016
 20
-515.970187426
 10
927.6816051857
 20
-522.7570116898
 10
925.2877063371
 20
-529.5485845671
 10
922.6752550056
 20
-536.3297398883
 10
919.8500779929
 20
-543.0853541142
 10
916.818476253
 20
-549.8003524196
 10
913.5872090865
 20
-556.4597543198
 10
910.1634994098
 20
-563.0486888803
 10
906.5549810707
 20
-569.5524616325
 10
902.7697041173
 20
-575.9565576161
 10
898.8161189928
 20
-582.2466870053
 10
894.7030449251
 20
-588.4088094409
 10
890.4396593905
 20
-594.429194866
 10
886.0354770402
 20
-600.2943748547
 10
881.5003286264
 20
-605.9913007863
 10
876.8443241246
 20
-611.5072252095
 10
872.0778632695
 20
-616.8298661035
 10
867.2115776037
 20
-621.9473308262
 10
862.2563225749
 20
-626.8482058484
 10
857.2231617308
 20
-631.5215658772
 10
852.1233219382
 20
-635.9569632061
 10
846.9681841632
 20
-640.1445060411
 10
841.7692505443
 20
-644.0748653424
 10
836.53812266
 20
-647.7392508673
 10
831.2864735411
 20
-651.1295003321
 10
826.0260208345
 20
-654.2380462344
 10
820.7685032608
 20
-657.0579416112
 10
815.5256526257
 20
-659.5829126991
 10
810.3091661615
 20
-661.8073018961
 10
805.130686935
 20
-663.7261642441
 10
800.0017658169
 20
-665.335216379
 10
794.933852262
 20
-666.6308540206
 10
789.9382495283
 20
-667.6102021589
 10
785.0261107255
 20
-668.2710686654
 10
780.2083914001
 20
-668.6119838329
 10
775.495846901
 20
-668.6321653938
 10
771.0771449613
 20
-668.349445655
  0
ENDSEC
  0
SECTION
  2
OBJECTS
  0
DICTIONARY
  5
C
330
0
100
AcDbDictionary
281
     1
  3
ACAD_GROUP
350
D
  3
ACAD_LAYOUT
350
1A
  3
ACAD_MLINESTYLE
350
17
  3
ACAD_PLOTSETTINGS
350
19
  3
ACAD_PLOTSTYLENAME
350
E
  3
ACAD_SCALELIST
350
47
  0
DICTIONARY
  5
D
102
{ACAD_REACTORS
330
C
102
}
330
C
100
AcDbDictionary
281
     1
  0
DICTIONARY
  5
1A
102
{ACAD_REACTORS
330
C
102
}
330
C
100
AcDbDictionary
281
     1
  3
Layout1
350
1E
  3
Layout2
350
26
  3
Model
350
22
  0
DICTIONARY
  5
17
102
{ACAD_REACTORS
330
C
102
}
330
C
100
AcDbDictionary
281
     1
  3
Standard
350
18
  0
DICTIONARY
  5
19
102
{ACAD_REACTORS
330
C
102
}
330
C
100
AcDbDictionary
281
     1
  0
ACDBDICTIONARYWDFLT
  5
E
102
{ACAD_REACTORS
330
C
102
}
330
C
100
AcDbDictionary
281
     1
  3
Normal
350
F
100
AcDbDictionaryWithDefault
340
F
  0
DICTIONARY
  5
47
102
{ACAD_REACTORS
330
C
102
}
330
C
100
AcDbDictionary
281
     1
  3
A0
350
48
  3
A1
350
49
  3
A2
350
4A
  3
A3
350
4B
  3
A4
350
4C
  3
A5
350
4D
  3
A6
350
4E
  3
A7
350
4F
  3
A8
350
50
  3
A9
350
51
  3
B0
350
52
  3
B1
350
53
  3
B2
350
54
  3
B3
350
55
  3
B4
350
56
  3
B5
350
57
  3
B6
350
58
  3
B7
350
59
  3
B8
350
5A
  3
B9
350
5B
  3
C0
350
5C
  3
C1
350
5D
  3
C2
350
5E
  3
C3
350
5F
  3
C4
350
60
  3
C5
350
61
  3
C6
350
62
  3
C7
350
63
  3
C8
350
64
  3
C9
350
65
  3
D0
350
66
  3
D1
350
67
  3
D2
350
68
  0
LAYOUT
  5
1E
102
{ACAD_REACTORS
330
1A
102
}
330
1A
100
AcDbPlotSettings
  1

  2
none_device
  4

  6

 40
0.0
 41
0.0
 42
0.0
 43
0.0
 44
0.0
 45
0.0
 46
0.0
 47
0.0
 48
0.0
 49
0.0
140
0.0
141
0.0
142
1.0
143
1.0
 70
   688
 72
     1
 73
     0
 74
     5
  7

 75
    16
147
1.0
148
0.0
149
0.0
100
AcDbLayout
  1
Layout1
 70
     1
 71
     1
 10
0.0
 20
0.0
 11
420.0
 21
297.0
 12
0.0
 22
0.0
 32
0.0
 14
1.0000000000E+20
 24
1.0000000000E+20
 34
1.0000000000E+20
 15
-1.0000000000E+20
 25
-1.0000000000E+20
 35
-1.0000000000E+20
146
0.0
 13
0.0
 23
0.0
 33
0.0
 16
1.0
 26
0.0
 36
0.0
 17
0.0
 27
1.0
 37
0.0
 76
     0
330
1B
  0
LAYOUT
  5
26
102
{ACAD_REACTORS
330
1A
102
}
330
1A
100
AcDbPlotSettings
  1

  2
none_device
  4

  6

 40
0.0
 41
0.0
 42
0.0
 43
0.0
 44
0.0
 45
0.0
 46
0.0
 47
0.0
 48
0.0
 49
0.0
140
0.0
141
0.0
142
1.0
143
1.0
 70
   688
 72
     1
 73
     0
 74
     5
  7

 75
    16
147
1.0
148
0.0
149
0.0
100
AcDbLayout
  1
Layout2
 70
     1
 71
     2
 10
0.0
 20
0.0
 11
0.0
 21
0.0
 12
0.0
 22
0.0
 32
0.0
 14
0.0
 24
0.0
 34
0.0
 15
0.0
 25
0.0
 35
0.0
146
0.0
 13
0.0
 23
0.0
 33
0.0
 16
1.0
 26
0.0
 36
0.0
 17
0.0
 27
1.0
 37
0.0
 76
     0
330
23
  0
LAYOUT
  5
22
102
{ACAD_REACTORS
330
1A
102
}
330
1A
100
AcDbPlotSettings
  1

  2
none_device
  4
Letter_(8.50_x_11.00_Inches)
  6

 40
6.35
 41
6.35
 42
6.35000508
 43
6.35000508
 44
215.9
 45
279.4
 46
0.0
 47
0.0
 48
0.0
 49
0.0
140
0.0
141
0.0
142
1.0
143
1.0
 70
  1712
 72
     1
 73
     0
 74
     0
  7

 75
     0
147
1.0
148
0.0
149
0.0
100
AcDbLayout
  1
Model
 70
     1
 71
     0
 10
0.0
 20
0.0
 11
279.4
 21
215.9
 12
0.0
 22
0.0
 32
0.0
 14
0.0
 24
0.0
 34
0.0
 15
279.4
 25
215.9
 35
0.0
146
0.0
 13
0.0
 23
0.0
 33
0.0
 16
1.0
 26
0.0
 36
0.0
 17
0.0
 27
1.0
 37
0.0
 76
     0
330
1F
331
29
  0
MLINESTYLE
  5
18
102
{ACAD_REACTORS
330
17
102
}
330
17
100
AcDbMlineStyle
  2
Standard
 70
     0
  3

 62
   256
 51
90.0
 52
90.0
 71
     2
 49
0.5
 62
   256
  6
BYLAYER
 49
-0.5
 62
   256
  6
BYLAYER
  0
ACDBPLACEHOLDER
  5
F
102
{ACAD_REACTORS
330
E
102
}
330
E
  0
SCALE
  5
48
102
{ACAD_REACTORS
330
47
102
}
330
47
100
AcDbScale
 70
     0
300
1:1
140
1.0
141
1.0
290
     1
  0
SCALE
  5
49
102
{ACAD_REACTORS
330
47
102
}
330
47
100
AcDbScale
 70
     0
300
1:2
140
1.0
141
2.0
290
     0
  0
SCALE
  5
4A
102
{ACAD_REACTORS
330
47
102
}
330
47
100
AcDbScale
 70
     0
300
1:4
140
1.0
141
4.0
290
     0
  0
SCALE
  5
4B
102
{ACAD_REACTORS
330
47
102
}
330
47
100
AcDbScale
 70
     0
300
1:5
140
1.0
141
5.0
290
     0
  0
SCALE
  5
4C
102
{ACAD_REACTORS
330
47
102
}
330
47
100
AcDbScale
 70
     0
300
1:8
140
1.0
141
8.0
290
     0
  0
SCALE
  5
4D
102
{ACAD_REACTORS
330
47
102
}
330
47
100
AcDbScale
 70
     0
300
1:10
140
1.0
141
10.0
290
     0
  0
SCALE
  5
4E
102
{ACAD_REACTORS
330
47
102
}
330
47
100
AcDbScale
 70
     0
300
1:16
140
1.0
141
16.0
290
     0
  0
SCALE
  5
4F
102
{ACAD_REACTORS
330
47
102
}
330
47
100
AcDbScale
 70
     0
300
1:20
140
1.0
141
20.0
290
     0
  0
SCALE
  5
50
102
{ACAD_REACTORS
330
47
102
}
330
47
100
AcDbScale
 70
     0
300
1:30
140
1.0
141
30.0
290
     0
  0
SCALE
  5
51
102
{ACAD_REACTORS
330
47
102
}
330
47
100
AcDbScale
 70
     0
300
1:40
140
1.0
141
40.0
290
     0
  0
SCALE
  5
52
102
{ACAD_REACTORS
330
47
102
}
330
47
100
AcDbScale
 70
     0
300
1:50
140
1.0
141
50.0
290
     0
  0
SCALE
  5
53
102
{ACAD_REACTORS
330
47
102
}
330
47
100
AcDbScale
 70
     0
300
1:100
140
1.0
141
100.0
290
     0
  0
SCALE
  5
54
102
{ACAD_REACTORS
330
47
102
}
330
47
100
AcDbScale
 70
     0
300
2:1
140
2.0
141
1.0
290
     0
  0
SCALE
  5
55
102
{ACAD_REACTORS
330
47
102
}
330
47
100
AcDbScale
 70
     0
300
4:1
140
4.0
141
1.0
290
     0
  0
SCALE
  5
56
102
{ACAD_REACTORS
330
47
102
}
330
47
100
AcDbScale
 70
     0
300
8:1
140
8.0
141
1.0
290
     0
  0
SCALE
  5
57
102
{ACAD_REACTORS
330
47
102
}
330
47
100
AcDbScale
 70
     0
300
10:1
140
10.0
141
1.0
290
     0
  0
SCALE
  5
58
102
{ACAD_REACTORS
330
47
102
}
330
47
100
AcDbScale
 70
     0
300
100:1
140
100.0
141
1.0
290
     0
  0
SCALE
  5
59
102
{ACAD_REACTORS
330
47
102
}
330
47
100
AcDbScale
 70
     0
300
1/128" = 1'-0"
140
0.0078125
141
12.0
290
     0
  0
SCALE
  5
5A
102
{ACAD_REACTORS
330
47
102
}
330
47
100
AcDbScale
 70
     0
300
1/64" = 1'-0"
140
0.015625
141
12.0
290
     0
  0
SCALE
  5
5B
102
{ACAD_REACTORS
330
47
102
}
330
47
100
AcDbScale
 70
     0
300
1/32" = 1'-0"
140
0.03125
141
12.0
290
     0
  0
SCALE
  5
5C
102
{ACAD_REACTORS
330
47
102
}
330
47
100
AcDbScale
 70
     0
300
1/16" = 1'-0"
140
0.0625
141
12.0
290
     0
  0
SCALE
  5
5D
102
{ACAD_REACTORS
330
47
102
}
330
47
100
AcDbScale
 70
     0
300
3/32" = 1'-0"
140
0.09375
141
12.0
290
     0
  0
SCALE
  5
5E
102
{ACAD_REACTORS
330
47
102
}
330
47
100
AcDbScale
 70
     0
300
1/8" = 1'-0"
140
0.125
141
12.0
290
     0
  0
SCALE
  5
5F
102
{ACAD_REACTORS
330
47
102
}
330
47
100
AcDbScale
 70
     0
300
3/16" = 1'-0"
140
0.1875
141
12.0
290
     0
  0
SCALE
  5
60
102
{ACAD_REACTORS
330
47
102
}
330
47
100
AcDbScale
 70
     0
300
1/4" = 1'-0"
140
0.25
141
12.0
290
     0
  0
SCALE
  5
61
102
{ACAD_REACTORS
330
47
102
}
330
47
100
AcDbScale
 70
     0
300
3/8" = 1'-0"
140
0.375
141
12.0
290
     0
  0
SCALE
  5
62
102
{ACAD_REACTORS
330
47
102
}
330
47
100
AcDbScale
 70
     0
300
1/2" = 1'-0"
140
0.5
141
12.0
290
     0
  0
SCALE
  5
63
102
{ACAD_REACTORS
330
47
102
}
330
47
100
AcDbScale
 70
     0
300
3/4" = 1'-0"
140
0.75
141
12.0
290
     0
  0
SCALE
  5
64
102
{ACAD_REACTORS
330
47
102
}
330
47
100
AcDbScale
 70
     0
300
1" = 1'-0"
140
1.0
141
12.0
290
     0
  0
SCALE
  5
65
102
{ACAD_REACTORS
330
47
102
}
330
47
100
AcDbScale
 70
     0
300
1-1/2" = 1'-0"
140
1.5
141
12.0
290
     0
  0
SCALE
  5
66
102
{ACAD_REACTORS
330
47
102
}
330
47
100
AcDbScale
 70
     0
300
3" = 1'-0"
140
3.0
141
12.0
290
     0
  0
SCALE
  5
67
102
{ACAD_REACTORS
330
47
102
}
330
47
100
AcDbScale
 70
     0
300
6" = 1'-0"
140
6.0
141
12.0
290
     0
  0
SCALE
  5
68
102
{ACAD_REACTORS
330
47
102
}
330
47
100
AcDbScale
 70
     0
300
1'-0" = 1'-0"
140
12.0
141
12.0
290
     0
  0
ENDSEC
  0
EOF
